  0
SECTION
  2
HEADER
  9
$ACADVER
  1
AC1015
  9
$ACADMAINTVER
 70
     6
  9
$DWGCODEPAGE
  3
ANSI_1254
  9
$INSBASE
 10
0.0
 20
0.0
 30
0.0
  9
$EXTMIN
 10
0.0
 20
0.0
 30
0.0
  9
$EXTMAX
 10
279.4
 20
215.9
 30
0.0
  9
$LIMMIN
 10
0.0
 20
0.0
  9
$LIMMAX
 10
279.4
 20
215.9
  9
$ORTHOMODE
 70
     0
  9
$REGENMODE
 70
     1
  9
$FILLMODE
 70
     1
  9
$QTEXTMODE
 70
     0
  9
$MIRRTEXT
 70
     1
  9
$LTSCALE
 40
1.0
  9
$ATTMODE
 70
     1
  9
$TEXTSIZE
 40
3.5
  9
$TRACEWID
 40
1.0
  9
$TEXTSTYLE
  7
Standard
  9
$CLAYER
  8
0
  9
$CELTYPE
  6
ByLayer
  9
$CECOLOR
 62
   256
  9
$CELTSCALE
 40
1.0
  9
$DISPSILH
 70
     0
  9
$DIMSCALE
 40
1.0
  9
$DIMASZ
 40
3.5
  9
$DIMEXO
 40
1.0
  9
$DIMDLI
 40
3.75
  9
$DIMRND
 40
0.0
  9
$DIMDLE
 40
0.0
  9
$DIMEXE
 40
1.0
  9
$DIMTP
 40
0.0
  9
$DIMTM
 40
0.0
  9
$DIMTXT
 40
3.5
  9
$DIMCEN
 40
2.5
  9
$DIMTSZ
 40
0.0
  9
$DIMTOL
 70
     0
  9
$DIMLIM
 70
     0
  9
$DIMTIH
 70
     1
  9
$DIMTOH
 70
     1
  9
$DIMSE1
 70
     0
  9
$DIMSE2
 70
     0
  9
$DIMTAD
 70
     1
  9
$DIMZIN
 70
     0
  9
$DIMBLK
  1

  9
$DIMASO
 70
     1
  9
$DIMSHO
 70
     1
  9
$DIMPOST
  1

  9
$DIMAPOST
  1

  9
$DIMALT
 70
     0
  9
$DIMALTD
 70
     3
  9
$DIMALTF
 40
0.0393700787
  9
$DIMLFAC
 40
1.0
  9
$DIMTOFL
 70
     1
  9
$DIMTVP
 40
0.0
  9
$DIMTIX
 70
     0
  9
$DIMSOXD
 70
     0
  9
$DIMSAH
 70
     0
  9
$DIMBLK1
  1

  9
$DIMBLK2
  1

  9
$DIMSTYLE
  2
ISO-25
  9
$DIMCLRD
 70
     0
  9
$DIMCLRE
 70
     0
  9
$DIMCLRT
 70
     0
  9
$DIMTFAC
 40
1.0
  9
$DIMGAP
 40
1.524
  9
$DIMJUST
 70
     0
  9
$DIMSD1
 70
     0
  9
$DIMSD2
 70
     0
  9
$DIMTOLJ
 70
     0
  9
$DIMTZIN
 70
     0
  9
$DIMALTZ
 70
     0
  9
$DIMALTTZ
 70
     0
  9
$DIMUPT
 70
     0
  9
$DIMDEC
 70
     2
  9
$DIMTDEC
 70
     2
  9
$DIMALTU
 70
     2
  9
$DIMALTTD
 70
     3
  9
$DIMTXSTY
  7
Standard
  9
$DIMAUNIT
 70
     0
  9
$DIMADEC
 70
     2
  9
$DIMALTRND
 40
0.0
  9
$DIMAZIN
 70
     0
  9
$DIMDSEP
 70
    44
  9
$DIMATFIT
 70
     3
  9
$DIMFRAC
 70
     0
  9
$DIMLDRBLK
  1

  9
$DIMLUNIT
 70
     2
  9
$DIMLWD
 70
    -2
  9
$DIMLWE
 70
    -2
  9
$DIMTMOVE
 70
     0
  9
$LUNITS
 70
     2
  9
$LUPREC
 70
     2
  9
$SKETCHINC
 40
1.0
  9
$FILLETRAD
 40
10.0
  9
$AUNITS
 70
     0
  9
$AUPREC
 70
     2
  9
$MENU
  1
.
  9
$ELEVATION
 40
0.0
  9
$PELEVATION
 40
0.0
  9
$THICKNESS
 40
0.0
  9
$LIMCHECK
 70
     0
  9
$CHAMFERA
 40
0.0
  9
$CHAMFERB
 40
0.0
  9
$CHAMFERC
 40
0.0
  9
$CHAMFERD
 40
0.0
  9
$SKPOLY
 70
     0
  9
$TDCREATE
 40
2460682.519579838
  9
$TDUCREATE
 40
2460682.394579838
  9
$TDUPDATE
 40
2460682.519580023
  9
$TDUUPDATE
 40
2460682.394580023
  9
$TDINDWG
 40
0.0000000116
  9
$TDUSRTIMER
 40
0.0000000116
  9
$USRTIMER
 70
     1
  9
$ANGBASE
 50
0.0
  9
$ANGDIR
 70
     0
  9
$PDMODE
 70
     0
  9
$PDSIZE
 40
-1.0
  9
$PLINEWID
 40
0.0
  9
$SPLFRAME
 70
     0
  9
$SPLINETYPE
 70
     6
  9
$SPLINESEGS
 70
     8
  9
$HANDSEED
  5
CB
  9
$SURFTAB1
 70
     6
  9
$SURFTAB2
 70
     6
  9
$SURFTYPE
 70
     6
  9
$SURFU
 70
     6
  9
$SURFV
 70
     6
  9
$UCSBASE
  2

  9
$UCSNAME
  2

  9
$UCSORG
 10
0.0
 20
0.0
 30
0.0
  9
$UCSXDIR
 10
1.0
 20
0.0
 30
0.0
  9
$UCSYDIR
 10
0.0
 20
1.0
 30
0.0
  9
$UCSORTHOREF
  2

  9
$UCSORTHOVIEW
 70
     0
  9
$UCSORGTOP
 10
0.0
 20
0.0
 30
0.0
  9
$UCSORGBOTTOM
 10
0.0
 20
0.0
 30
0.0
  9
$UCSORGLEFT
 10
0.0
 20
0.0
 30
0.0
  9
$UCSORGRIGHT
 10
0.0
 20
0.0
 30
0.0
  9
$UCSORGFRONT
 10
0.0
 20
0.0
 30
0.0
  9
$UCSORGBACK
 10
0.0
 20
0.0
 30
0.0
  9
$PUCSBASE
  2

  9
$PUCSNAME
  2

  9
$PUCSORG
 10
0.0
 20
0.0
 30
0.0
  9
$PUCSXDIR
 10
1.0
 20
0.0
 30
0.0
  9
$PUCSYDIR
 10
0.0
 20
1.0
 30
0.0
  9
$PUCSORTHOREF
  2

  9
$PUCSORTHOVIEW
 70
     0
  9
$PUCSORGTOP
 10
0.0
 20
0.0
 30
0.0
  9
$PUCSORGBOTTOM
 10
0.0
 20
0.0
 30
0.0
  9
$PUCSORGLEFT
 10
0.0
 20
0.0
 30
0.0
  9
$PUCSORGRIGHT
 10
0.0
 20
0.0
 30
0.0
  9
$PUCSORGFRONT
 10
0.0
 20
0.0
 30
0.0
  9
$PUCSORGBACK
 10
0.0
 20
0.0
 30
0.0
  9
$USERI1
 70
     0
  9
$USERI2
 70
     0
  9
$USERI3
 70
     0
  9
$USERI4
 70
     0
  9
$USERI5
 70
     0
  9
$USERR1
 40
0.0
  9
$USERR2
 40
0.0
  9
$USERR3
 40
0.0
  9
$USERR4
 40
0.0
  9
$USERR5
 40
0.0
  9
$WORLDVIEW
 70
     1
  9
$SHADEDGE
 70
     3
  9
$SHADEDIF
 70
    70
  9
$TILEMODE
 70
     1
  9
$MAXACTVP
 70
    64
  9
$PINSBASE
 10
0.0
 20
0.0
 30
0.0
  9
$PLIMCHECK
 70
     0
  9
$PEXTMIN
 10
1.0000000000E+20
 20
1.0000000000E+20
 30
1.0000000000E+20
  9
$PEXTMAX
 10
-1.0000000000E+20
 20
-1.0000000000E+20
 30
-1.0000000000E+20
  9
$PLIMMIN
 10
0.0
 20
0.0
  9
$PLIMMAX
 10
420.0
 20
297.0
  9
$UNITMODE
 70
     0
  9
$VISRETAIN
 70
     1
  9
$PLINEGEN
 70
     0
  9
$PSLTSCALE
 70
     1
  9
$TREEDEPTH
 70
  3020
  9
$CMLSTYLE
  2
Standard
  9
$CMLJUST
 70
     0
  9
$CMLSCALE
 40
20.0
  9
$PROXYGRAPHICS
 70
     1
  9
$MEASUREMENT
 70
     1
  9
$CELWEIGHT
370
    -1
  9
$ENDCAPS
280
     0
  9
$JOINSTYLE
280
     0
  9
$LWDISPLAY
290
     1
  9
$INSUNITS
 70
     4
  9
$HYPERLINKBASE
  1

  9
$STYLESHEET
  1

  9
$XEDIT
290
     1
  9
$CEPSNTYPE
380
     0
  9
$PSTYLEMODE
290
     1
  9
$FINGERPRINTGUID
  2
{124be5d4-e78b-403b-ae21-79685f11f41a}
  9
$VERSIONGUID
  2
{FAEB1C32-E019-11D5-929B-00C0DF256EC4}
  9
$EXTNAMES
290
     1
  9
$PSVPSCALE
 40
0.0
  9
$OLESTARTUP
290
     0
  0
ENDSEC
  0
SECTION
  2
CLASSES
  0
CLASS
  1
ACDBDICTIONARYWDFLT
  2
AcDbDictionaryWithDefault
  3
ObjectDBX Classes
 90
        0
280
     0
281
     0
  0
CLASS
  1
VISUALSTYLE
  2
AcDbVisualStyle
  3
ObjectDBX Classes
 90
     4095
280
     0
281
     0
  0
CLASS
  1
MATERIAL
  2
AcDbMaterial
  3
ObjectDBX Classes
 90
     1153
280
     0
281
     0
  0
CLASS
  1
SCALE
  2
AcDbScale
  3
ObjectDBX Classes
 90
     1153
280
     0
281
     0
  0
CLASS
  1
TABLESTYLE
  2
AcDbTableStyle
  3
ObjectDBX Classes
 90
     4095
280
     0
281
     0
  0
CLASS
  1
MLEADERSTYLE
  2
AcDbMLeaderStyle
  3
ACDB_MLEADERSTYLE_CLASS
 90
     4095
280
     0
281
     0
  0
CLASS
  1
SUN
  2
AcDbSun
  3
SCENEOE
 90
     1153
280
     0
281
     0
  0
CLASS
  1
ACDBPLACEHOLDER
  2
AcDbPlaceHolder
  3
ObjectDBX Classes
 90
        0
280
     0
281
     0
  0
CLASS
  1
LAYOUT
  2
AcDbLayout
  3
ObjectDBX Classes
 90
        0
280
     0
281
     0
  0
ENDSEC
  0
SECTION
  2
TABLES
  0
TABLE
  2
VPORT
  5
8
330
0
100
AcDbSymbolTable
 70
     1
  0
VPORT
  5
29
330
8
100
AcDbSymbolTableRecord
100
AcDbViewportTableRecord
  2
*Active
 70
     0
 10
0.0
 20
0.0
 11
1.0
 21
1.0
 12
139.7
 22
107.95
 13
0.0
 23
0.0
 14
10.0
 24
10.0
 15
10.0
 25
10.0
 16
0.0
 26
0.0
 36
1.0
 17
0.0
 27
0.0
 37
0.0
 40
215.9
 41
1.2941176471
 42
50.0
 43
0.0
 44
0.0
 50
0.0
 51
0.0
 71
     0
 72
  2000
 73
     1
 74
     3
 75
     0
 76
     0
 77
     0
 78
     0
281
     0
 65
     1
110
0.0
120
0.0
130
0.0
111
1.0
121
0.0
131
0.0
112
0.0
122
1.0
132
0.0
 79
     0
146
0.0
  0
ENDTAB
  0
TABLE
  2
LTYPE
  5
5
330
0
100
AcDbSymbolTable
 70
     6
  0
LTYPE
  5
14
330
5
100
AcDbSymbolTableRecord
100
AcDbLinetypeTableRecord
  2
ByBlock
 70
     0
  3

 72
    65
 73
     0
 40
0.0
  0
LTYPE
  5
15
330
5
100
AcDbSymbolTableRecord
100
AcDbLinetypeTableRecord
  2
ByLayer
 70
     0
  3

 72
    65
 73
     0
 40
0.0
  0
LTYPE
  5
16
330
5
100
AcDbSymbolTableRecord
100
AcDbLinetypeTableRecord
  2
Continuous
 70
     0
  3
Solid line
 72
    65
 73
     0
 40
0.0
  0
LTYPE
  5
6E
330
5
100
AcDbSymbolTableRecord
100
AcDbLinetypeTableRecord
  2
HIDDEN
 70
     0
  3
Hidden __ __ __ __ __ __ __ __ __ __ __ __ __ __
 72
    65
 73
     2
 40
1.905
 49
1.27
 74
     0
 49
-0.635
 74
     0
  0
LTYPE
  5
6F
330
5
100
AcDbSymbolTableRecord
100
AcDbLinetypeTableRecord
  2
PHANTOM
 70
     0
  3
Phantom ______  __  __  ______  __  __  ______
 72
    65
 73
     6
 40
12.7
 49
6.35
 74
     0
 49
-1.27
 74
     0
 49
1.27
 74
     0
 49
-1.27
 74
     0
 49
1.27
 74
     0
 49
-1.27
 74
     0
  0
LTYPE
  5
70
330
5
100
AcDbSymbolTableRecord
100
AcDbLinetypeTableRecord
  2
CENTER
 70
     0
  3
Center ____ _ ____ _ ____ _ ____ _ ____ _ ____
 72
    65
 73
     4
 40
10.16
 49
6.35
 74
     0
 49
-1.27
 74
     0
 49
1.27
 74
     0
 49
-1.27
 74
     0
  0
LTYPE
  5
71
330
5
100
AcDbSymbolTableRecord
100
AcDbLinetypeTableRecord
  2
CENTERX2
 70
     0
  3
Center (2x) ________  __  ________  __  _____
 72
    65
 73
     4
 40
20.32
 49
12.7
 74
     0
 49
-2.54
 74
     0
 49
2.54
 74
     0
 49
-2.54
 74
     0
  0
LTYPE
  5
72
330
5
100
AcDbSymbolTableRecord
100
AcDbLinetypeTableRecord
  2
DOT2
 70
     0
  3
Dot (.5x) ........................................
 72
    65
 73
     2
 40
0.635
 49
0.0
 74
     0
 49
-0.635
 74
     0
  0
ENDTAB
  0
TABLE
  2
LAYER
  5
2
330
0
100
AcDbSymbolTable
 70
    17
  0
LAYER
  5
10
330
2
100
AcDbSymbolTableRecord
100
AcDbLayerTableRecord
  2
0
 70
     0
 62
     7
  6
Continuous
370
    -3
390
F
  0
LAYER
  5
73
330
2
100
AcDbSymbolTableRecord
100
AcDbLayerTableRecord
  2
FORMAT
 70
     0
 62
     7
  6
Continuous
370
    -3
390
F
  0
LAYER
  5
74
330
2
100
AcDbSymbolTableRecord
100
AcDbLayerTableRecord
  2
YARDIMCI_GEOMETRI
 70
     0
 62
    -6
  6
Continuous
290
     0
370
    -3
390
F
  0
LAYER
  5
75
330
2
100
AcDbSymbolTableRecord
100
AcDbLayerTableRecord
  2
SAYFA_CERCEVESI
 70
     0
 62
     7
  6
Continuous
370
    25
390
F
  0
LAYER
  5
76
330
2
100
AcDbSymbolTableRecord
100
AcDbLayerTableRecord
  2
ANTET
 70
     0
 62
     7
  6
Continuous
370
    -3
390
F
  0
LAYER
  5
77
330
2
100
AcDbSymbolTableRecord
100
AcDbLayerTableRecord
  2
OLCU
 70
     0
 62
   150
  6
Continuous
370
    -3
390
F
  0
LAYER
  5
78
330
2
100
AcDbSymbolTableRecord
100
AcDbLayerTableRecord
  2
METIN
 70
     0
 62
    96
  6
Continuous
370
    -3
390
F
  0
LAYER
  5
79
330
2
100
AcDbSymbolTableRecord
100
AcDbLayerTableRecord
  2
BALON
 70
     0
 62
     5
  6
Continuous
370
    -3
390
F
  0
LAYER
  5
7A
330
2
100
AcDbSymbolTableRecord
100
AcDbLayerTableRecord
  2
VURGU
 70
     0
 62
     7
  6
Continuous
370
    -3
390
F
  0
LAYER
  5
7B
330
2
100
AcDbSymbolTableRecord
100
AcDbLayerTableRecord
  2
SILIK
 70
     0
 62
     7
  6
Continuous
370
    -3
390
F
  0
LAYER
  5
7C
330
2
100
AcDbSymbolTableRecord
100
AcDbLayerTableRecord
  2
MODEL
 70
     0
 62
     7
  6
Continuous
370
    -3
390
F
  0
LAYER
  5
7D
330
2
100
AcDbSymbolTableRecord
100
AcDbLayerTableRecord
  2
DETAYLANDıRMA
 70
     0
 62
   190
  6
Continuous
370
    -3
390
F
  0
LAYER
  5
7E
330
2
100
AcDbSymbolTableRecord
100
AcDbLayerTableRecord
  2
TOLERANS
 70
     0
 62
   230
  6
Continuous
370
    -3
390
F
  0
LAYER
  5
7F
330
2
100
AcDbSymbolTableRecord
100
AcDbLayerTableRecord
  2
MERKEZ_CIZGILERI
 70
     0
 62
    30
  6
Continuous
370
    -3
390
F
  0
LAYER
  5
80
330
2
100
AcDbSymbolTableRecord
100
AcDbLayerTableRecord
  2
KESIT-DETAY_CIZGILERI
 70
     0
 62
     7
  6
Continuous
370
    -3
390
F
  0
LAYER
  5
81
330
2
100
AcDbSymbolTableRecord
100
AcDbLayerTableRecord
  2
\U+041E\U+0421\U+0415\U+0412\U+042B\U+0415
 70
     0
 62
     7
  6
Continuous
370
    -3
390
F
  0
LAYER
  5
82
330
2
100
AcDbSymbolTableRecord
100
AcDbLayerTableRecord
  2
\U+0412\U+041E\U+0414\U+042F\U+041D\U+042B\U+0415_\U+0417\U+041D\U+0410\U+041A\U+0418
 70
     0
 62
    11
  6
Continuous
370
    -3
390
F
  0
ENDTAB
  0
TABLE
  2
STYLE
  5
3
330
0
100
AcDbSymbolTable
 70
     1
  0
STYLE
  5
11
330
3
100
AcDbSymbolTableRecord
100
AcDbTextStyleTableRecord
  2
Standard
 70
     0
 40
0.0
 41
1.0
 50
0.0
 71
     0
 42
3.5
  3
txt
  4

  0
ENDTAB
  0
TABLE
  2
VIEW
  5
6
330
0
100
AcDbSymbolTable
 70
     0
  0
ENDTAB
  0
TABLE
  2
UCS
  5
7
330
0
100
AcDbSymbolTable
 70
     0
  0
ENDTAB
  0
TABLE
  2
APPID
  5
9
330
0
100
AcDbSymbolTable
 70
     1
  0
APPID
  5
12
330
9
100
AcDbSymbolTableRecord
100
AcDbRegAppTableRecord
  2
ACAD
 70
     0
  0
ENDTAB
  0
TABLE
  2
DIMSTYLE
  5
A
330
0
100
AcDbSymbolTable
 70
     1
100
AcDbDimStyleTable
  0
DIMSTYLE
105
27
330
A
100
AcDbSymbolTableRecord
100
AcDbDimStyleTableRecord
  2
ISO-25
 70
     0
 41
2.5
 42
0.625
 43
3.75
 44
1.25
 73
     0
 74
     0
 77
     1
 78
     8
140
2.5
141
2.5
143
0.0393700787
147
0.625
171
     3
172
     1
178
     0
271
     2
272
     2
274
     3
278
    44
283
     0
284
     8
340
11
  0
ENDTAB
  0
TABLE
  2
BLOCK_RECORD
  5
1
330
0
100
AcDbSymbolTable
 70
     3
  0
BLOCK_RECORD
  5
1F
330
1
100
AcDbSymbolTableRecord
100
AcDbBlockTableRecord
  2
*Model_Space
340
22
  0
BLOCK_RECORD
  5
1B
330
1
100
AcDbSymbolTableRecord
100
AcDbBlockTableRecord
  2
*Paper_Space
340
1E
  0
BLOCK_RECORD
  5
23
330
1
100
AcDbSymbolTableRecord
100
AcDbBlockTableRecord
  2
*Paper_Space0
340
26
  0
BLOCK_RECORD
  5
9A
330
1
100
AcDbSymbolTableRecord
100
AcDbBlockTableRecord
  2
SW_CENTERMARKSYMBOL_0
340
0
102
{BLKREFS
331
A5
102
}
  0
BLOCK_RECORD
  5
B5
330
1
100
AcDbSymbolTableRecord
100
AcDbBlockTableRecord
  2
SW_CENTERMARKSYMBOL_1
340
0
102
{BLKREFS
331
C0
102
}
  0
ENDTAB
  0
ENDSEC
  0
SECTION
  2
BLOCKS
  0
BLOCK
  5
20
330
1F
100
AcDbEntity
  8
0
100
AcDbBlockBegin
  2
*Model_Space
 70
     0
 10
0.0
 20
0.0
 30
0.0
  3
*Model_Space
  1

  0
ENDBLK
  5
21
330
1F
100
AcDbEntity
  8
0
100
AcDbBlockEnd
  0
BLOCK
  5
1C
330
1B
100
AcDbEntity
 67
     1
  8
0
100
AcDbBlockBegin
  2
*Paper_Space
 70
     0
 10
0.0
 20
0.0
 30
0.0
  3
*Paper_Space
  1

  0
ENDBLK
  5
1D
330
1B
100
AcDbEntity
 67
     1
  8
0
100
AcDbBlockEnd
  0
BLOCK
  5
24
330
23
100
AcDbEntity
  8
0
100
AcDbBlockBegin
  2
*Paper_Space0
 70
     0
 10
0.0
 20
0.0
 30
0.0
  3
*Paper_Space0
  1

  0
ENDBLK
  5
25
330
23
100
AcDbEntity
  8
0
100
AcDbBlockEnd
  0
BLOCK
  5
9B
330
9A
100
AcDbEntity
  8
0
100
AcDbBlockBegin
  2
SW_CENTERMARKSYMBOL_0
 70
     0
 10
0.0
 20
0.0
 30
0.0
  3
SW_CENTERMARKSYMBOL_0
  1

  0
LINE
  5
9D
330
9A
100
AcDbEntity
  8
FORMAT
 62
     0
100
AcDbLine
 10
0.0
 20
0.0
 30
0.0
 11
0.0
 21
2.5
 31
0.0
  0
LINE
  5
9E
330
9A
100
AcDbEntity
  8
FORMAT
 62
     0
100
AcDbLine
 10
0.0
 20
0.0
 30
0.0
 11
-2.5
 21
0.0
 31
0.0
  0
LINE
  5
9F
330
9A
100
AcDbEntity
  8
FORMAT
 62
     0
100
AcDbLine
 10
0.0
 20
0.0
 30
0.0
 11
0.0
 21
-2.5
 31
0.0
  0
LINE
  5
A0
330
9A
100
AcDbEntity
  8
FORMAT
 62
     0
100
AcDbLine
 10
0.0
 20
0.0
 30
0.0
 11
2.5
 21
0.0
 31
0.0
  0
LINE
  5
A1
330
9A
100
AcDbEntity
  8
FORMAT
 62
     0
100
AcDbLine
 10
0.0
 20
5.0
 30
0.0
 11
0.0
 21
102.5
 31
0.0
  0
LINE
  5
A2
330
9A
100
AcDbEntity
  8
FORMAT
 62
     0
100
AcDbLine
 10
-5.0
 20
0.0
 30
0.0
 11
-102.5
 21
0.0
 31
0.0
  0
LINE
  5
A3
330
9A
100
AcDbEntity
  8
FORMAT
 62
     0
100
AcDbLine
 10
0.0
 20
-5.0
 30
0.0
 11
0.0
 21
-102.5
 31
0.0
  0
LINE
  5
A4
330
9A
100
AcDbEntity
  8
FORMAT
 62
     0
100
AcDbLine
 10
5.0
 20
0.0
 30
0.0
 11
102.5
 21
0.0
 31
0.0
  0
ENDBLK
  5
9C
330
9A
100
AcDbEntity
  8
0
100
AcDbBlockEnd
  0
BLOCK
  5
B6
330
B5
100
AcDbEntity
  8
0
100
AcDbBlockBegin
  2
SW_CENTERMARKSYMBOL_1
 70
     0
 10
0.0
 20
0.0
 30
0.0
  3
SW_CENTERMARKSYMBOL_1
  1

  0
LINE
  5
B8
330
B5
100
AcDbEntity
  8
FORMAT
 62
     0
100
AcDbLine
 10
0.0
 20
0.0
 30
0.0
 11
0.0
 21
2.5
 31
0.0
  0
LINE
  5
B9
330
B5
100
AcDbEntity
  8
FORMAT
 62
     0
100
AcDbLine
 10
0.0
 20
0.0
 30
0.0
 11
-2.5
 21
0.0
 31
0.0
  0
LINE
  5
BA
330
B5
100
AcDbEntity
  8
FORMAT
 62
     0
100
AcDbLine
 10
0.0
 20
0.0
 30
0.0
 11
0.0
 21
-2.5
 31
0.0
  0
LINE
  5
BB
330
B5
100
AcDbEntity
  8
FORMAT
 62
     0
100
AcDbLine
 10
0.0
 20
0.0
 30
0.0
 11
2.5
 21
0.0
 31
0.0
  0
LINE
  5
BC
330
B5
100
AcDbEntity
  8
FORMAT
 62
     0
100
AcDbLine
 10
0.0
 20
5.0
 30
0.0
 11
0.0
 21
102.5
 31
0.0
  0
LINE
  5
BD
330
B5
100
AcDbEntity
  8
FORMAT
 62
     0
100
AcDbLine
 10
-5.0
 20
0.0
 30
0.0
 11
-102.5
 21
0.0
 31
0.0
  0
LINE
  5
BE
330
B5
100
AcDbEntity
  8
FORMAT
 62
     0
100
AcDbLine
 10
0.0
 20
-5.0
 30
0.0
 11
0.0
 21
-102.5
 31
0.0
  0
LINE
  5
BF
330
B5
100
AcDbEntity
  8
FORMAT
 62
     0
100
AcDbLine
 10
5.0
 20
0.0
 30
0.0
 11
102.5
 21
0.0
 31
0.0
  0
ENDBLK
  5
B7
330
B5
100
AcDbEntity
  8
0
100
AcDbBlockEnd
  0
ENDSEC
  0
SECTION
  2
ENTITIES
  0
LINE
  5
83
330
1F
100
AcDbEntity
  8
0
  6
Continuous
 62
     7
370
    25
100
AcDbLine
 10
145.6533310813
 20
349.9169704797
 30
0.0
 11
39.813400071
 21
166.5968325002
 31
0.0
  0
LINE
  5
84
330
1F
100
AcDbEntity
  8
0
  6
Continuous
 62
     7
370
    25
100
AcDbLine
 10
239.813400071
 20
113.006994014
 30
0.0
 11
318.8584118382
 21
249.9169704797
 31
0.0
  0
LINE
  5
85
330
1F
100
AcDbEntity
  8
0
  6
Continuous
 62
     7
370
    25
100
AcDbLine
 10
39.813400071
 20
166.5968325002
 30
0.0
 11
39.813400071
 21
-45.0830295203
 31
0.0
  0
LINE
  5
86
330
1F
100
AcDbEntity
  8
0
  6
Continuous
 62
     7
370
    25
100
AcDbLine
 10
239.813400071
 20
-45.0830295203
 30
0.0
 11
239.813400071
 21
113.006994014
 31
0.0
  0
LINE
  5
87
330
1F
100
AcDbEntity
  8
0
  6
Continuous
 62
     7
370
    25
100
AcDbLine
 10
232.2558714597
 20
299.9169704797
 30
0.0
 11
318.8584118382
 21
249.9169704797
 31
0.0
  0
LINE
  5
88
330
1F
100
AcDbEntity
  8
0
  6
Continuous
 62
     7
370
    25
100
AcDbLine
 10
145.6533310813
 20
349.9169704797
 30
0.0
 11
232.2558714597
 21
299.9169704797
 31
0.0
  0
LINE
  5
89
330
1F
100
AcDbEntity
  8
0
  6
Continuous
 62
     7
370
    25
100
AcDbLine
 10
239.813400071
 20
113.006994014
 30
0.0
 11
39.813400071
 21
166.5968325002
 31
0.0
  0
LINE
  5
8A
330
1F
100
AcDbEntity
  8
0
  6
Continuous
 62
     7
370
    25
100
AcDbLine
 10
139.813400071
 20
-45.0830295203
 30
0.0
 11
239.813400071
 21
-45.0830295203
 31
0.0
  0
LINE
  5
8B
330
1F
100
AcDbEntity
  8
0
  6
Continuous
 62
     7
370
    25
100
AcDbLine
 10
39.813400071
 20
-45.0830295203
 30
0.0
 11
139.813400071
 21
-45.0830295203
 31
0.0
  0
LINE
  5
8C
330
1F
100
AcDbEntity
  8
0
  6
Continuous
 62
     7
370
    25
100
AcDbLine
 10
378.8173948655
 20
299.9169704797
 30
0.0
 11
378.8173948655
 21
139.8019132571
 31
0.0
  0
LINE
  5
8D
330
1F
100
AcDbEntity
  8
0
  6
Continuous
 62
     7
370
    25
100
AcDbLine
 10
578.8173948655
 20
139.8019132571
 30
0.0
 11
578.8173948655
 21
299.9169704797
 31
0.0
  0
LINE
  5
8E
330
1F
100
AcDbEntity
  8
0
  6
Continuous
 62
     7
370
    25
100
AcDbLine
 10
378.8173948655
 20
139.8019132571
 30
0.0
 11
378.8173948655
 21
-45.0830295203
 31
0.0
  0
LINE
  5
8F
330
1F
100
AcDbEntity
  8
0
  6
Continuous
 62
     7
370
    25
100
AcDbLine
 10
578.8173948655
 20
-45.0830295203
 30
0.0
 11
578.8173948655
 21
139.8019132571
 31
0.0
  0
LWPOLYLINE
  5
90
330
1F
100
AcDbEntity
  8
0
  6
Continuous
 62
     7
370
    25
100
AcDbPolyline
 90
       54
 70
   128
 43
0.0
 10
378.8173948655
 20
299.9169704797
 10
378.993021689
 20
302.8790018743
 10
379.5192852641
 20
305.8306290257
 10
380.3943370707
 20
308.7614842358
 10
381.6151034574
 20
311.6612727687
 10
383.1772964378
 20
314.5198090115
 10
385.0754287521
 20
317.3270522514
 10
387.3028331412
 20
320.0731419441
 10
389.851685766
 20
322.7484323493
 10
392.7130336887
 20
325.3435264121
 10
395.8768263205
 20
327.8493087698
 10
399.3319507241
 20
330.2569777706
 10
403.0662706493
 20
332.5580763892
 10
407.066669161
 20
334.7445219328
 10
411.3190947137
 20
336.8086344317
 10
415.8086105073
 20
338.7431636156
 10
420.519446954
 20
340.5413143799
 10
425.435057069
 20
342.1967706547
 10
430.5381745924
 20
343.7037175894
 10
435.8108746378
 20
345.0568619779
 10
441.234636654
 20
346.2514508512
 10
446.7904094792
 20
347.2832881724
 10
452.4586782586
 20
348.1487495751
 10
458.2195329914
 20
348.8447950946
 10
464.0527384652
 20
349.3689798458
 10
469.9378053332
 20
349.7194626104
 10
475.8540620832
 20
349.8950123051
 10
481.7807276477
 20
349.8950123051
 10
487.6969843978
 20
349.7194626104
 10
493.5820512657
 20
349.3689798458
 10
499.4152567396
 20
348.8447950946
 10
505.1761114724
 20
348.1487495751
 10
510.8443802518
 20
347.2832881724
 10
516.4001530769
 20
346.2514508512
 10
521.8239150931
 20
345.0568619779
 10
527.0966151385
 20
343.7037175894
 10
532.199732662
 20
342.1967706547
 10
537.1153427769
 20
340.5413143799
 10
541.8261792236
 20
338.7431636156
 10
546.3156950173
 20
336.8086344317
 10
550.5681205699
 20
334.7445219328
 10
554.5685190816
 20
332.5580763892
 10
558.3028390068
 20
330.2569777706
 10
561.7579634105
 20
327.8493087698
 10
564.9217560422
 20
325.3435264121
 10
567.7831039649
 20
322.7484323493
 10
570.3319565898
 20
320.073141944
 10
572.5593609789
 20
317.3270522514
 10
574.4574932931
 20
314.5198090115
 10
576.0196862735
 20
311.6612727687
 10
577.2404526602
 20
308.7614842358
 10
578.1155044668
 20
305.8306290257
 10
578.6417680419
 20
302.8790018743
 10
578.8173948655
 20
299.9169704797
  0
ELLIPSE
  5
91
330
1F
100
AcDbEntity
  8
0
  6
Continuous
 62
     7
370
    25
100
AcDbEllipse
 10
478.8173948655
 20
139.8019132571
 30
0.0
 11
99.99999999999994
 21
0.0
 31
0.0
210
0.0
220
0.0
230
1.0
 40
0.2679491924
 41
1.570796326794897
 42
3.141592653589849
  0
ELLIPSE
  5
92
330
1F
100
AcDbEntity
  8
0
  6
Continuous
 62
     7
370
    25
100
AcDbEllipse
 10
478.8173948655
 20
139.8019132571
 30
0.0
 11
99.99999999999994
 21
0.0
 31
0.0
210
0.0
220
0.0
230
1.0
 40
0.2679491924
 41
0.0
 42
1.570796326794919
  0
LINE
  5
93
330
1F
100
AcDbEntity
  8
0
  6
Continuous
 62
     7
370
    25
100
AcDbLine
 10
378.8173948655
 20
-45.0830295203
 30
0.0
 11
578.8173948655
 21
-45.0830295203
 31
0.0
  0
LINE
  5
94
330
1F
100
AcDbEntity
  8
0
  6
Continuous
 62
     7
370
    25
100
AcDbLine
 10
232.2558714597
 20
645.3803163091
 30
0.0
 11
139.813400071
 21
645.3803163091
 31
0.0
  0
LINE
  5
95
330
1F
100
AcDbEntity
  8
0
  6
Continuous
 62
     7
370
    25
100
AcDbLine
 10
139.813400071
 20
445.3803163091
 30
0.0
 11
232.2558714597
 21
445.3803163091
 31
0.0
  0
CIRCLE
  5
96
330
1F
100
AcDbEntity
  8
0
  6
Continuous
 62
     7
370
    25
100
AcDbCircle
 10
139.813400071
 20
545.3803163091
 30
0.0
 40
100.0
  0
CIRCLE
  5
97
330
1F
100
AcDbEntity
  8
0
  6
Continuous
 62
     7
370
    25
100
AcDbCircle
 10
139.813400071
 20
545.3803163091
 30
0.0
 40
81.79999999999995
  0
LWPOLYLINE
  5
98
330
1F
100
AcDbEntity
  8
0
  6
Continuous
 62
     7
370
    25
100
AcDbPolyline
 90
       55
 70
   128
 43
0.0
 10
232.2558714597
 20
645.3803163091
 10
237.3862603289
 20
645.2046894856
 10
242.4986285201
 20
644.6784259105
 10
247.5750186536
 20
643.8033741039
 10
252.5975997238
 20
642.5826077172
 10
257.5487297316
 20
641.0204147368
 10
262.4110176523
 20
639.1222824226
 10
267.1673845221
 20
636.8948780334
 10
271.8011234291
 20
634.3460254086
 10
276.2959581962
 20
631.4846774859
 10
280.6361005525
 20
628.3208848542
 10
284.8063055896
 20
624.8657604505
 10
288.7919253102
 20
621.1314405253
 10
292.5789600798
 20
617.1310420136
 10
296.1541078005
 20
612.878616461
 10
299.5048106356
 20
608.3891006673
 10
302.6192991191
 20
603.6782642206
 10
305.4866334968
 20
598.7626541056
 10
308.096742152
 20
593.6595365822
 10
310.4404569829
 20
588.3868365368
 10
312.5095456056
 20
582.9630745206
 10
314.2967402709
 20
577.4073016954
 10
315.7957633924
 20
571.739032916
 10
317.0013495967
 20
565.9781781832
 10
317.9092642182
 20
560.1449727094
 10
318.5163181737
 20
554.2599058414
 10
318.8203791642
 20
548.3436490914
 10
318.8203791642
 20
542.4169835269
 10
318.5163181737
 20
536.5007267768
 10
317.9092642182
 20
530.6156599089
 10
317.0013495967
 20
524.782454435
 10
315.7957633924
 20
519.0215997022
 10
314.2967402709
 20
513.3533309229
 10
312.5095456056
 20
507.7975580977
 10
310.4404569829
 20
502.3737960815
 10
308.096742152
 20
497.1010960361
 10
305.4866334968
 20
491.9979785127
 10
302.6192991191
 20
487.0823683977
 10
299.5048106356
 20
482.371531951
 10
296.1541078005
 20
477.8820161573
 10
292.5789600798
 20
473.6295906047
 10
288.7919253102
 20
469.629192093
 10
284.8063055896
 20
465.8948721678
 10
280.6361005525
 20
462.4397477641
 10
276.2959581962
 20
459.2759551324
 10
271.8011234291
 20
456.4146072097
 10
267.1673845221
 20
453.8657545848
 10
262.4110176523
 20
451.6383501957
 10
257.5487297316
 20
449.7402178815
 10
252.5975997238
 20
448.1780249011
 10
247.5750186536
 20
446.9572585144
 10
242.4986285201
 20
446.0822067078
 10
237.3862603289
 20
445.5559431327
 10
232.2558714597
 20
445.3803163091
 10
232.2558714597
 20
445.3803163091
  0
LWPOLYLINE
  5
99
330
1F
100
AcDbEntity
  8
0
  6
Continuous
 62
     7
370
    25
100
AcDbPolyline
 90
       31
 70
   128
 43
0.0
 10
189.3531711809
 20
610.4729509031
 10
189.1306773182
 20
610.276619545
 10
185.5472349929
 20
606.8808125609
 10
182.1638062198
 20
603.2216510102
 10
178.9948793603
 20
599.3148039843
 10
176.0540242458
 20
595.1770012021
 10
173.3538340693
 20
590.8259613701
 10
170.9058714597
 20
586.2803163091
 10
168.7206189687
 20
581.5595311691
 10
166.8074341831
 20
576.6838210766
 10
165.1745096536
 20
571.6740645709
 10
163.828837814
 20
566.5517141985
 10
162.7761810375
 20
561.3387046501
 10
162.0210469621
 20
556.0573588327
 10
161.5666691878
 20
550.7302922802
 10
161.4149934301
 20
545.3803163091
 10
161.5666691878
 20
540.0303403381
 10
162.0210469621
 20
534.7032737855
 10
162.7761810375
 20
529.4219279682
 10
163.828837814
 20
524.2089184198
 10
165.1745096536
 20
519.0865680473
 10
166.8074341831
 20
514.0768115417
 10
168.7206189687
 20
509.2011014492
 10
170.9058714597
 20
504.4803163091
 10
173.3538340693
 20
499.9346712481
 10
176.0540242458
 20
495.5836314162
 10
178.9948793603
 20
491.445828634
 10
182.1638062198
 20
487.5389816081
 10
185.5472349929
 20
483.8798200574
 10
189.1306773182
 20
480.4840130733
 10
189.3531711809
 20
480.2876817152
  0
INSERT
  5
A5
330
1F
100
AcDbEntity
  8
FORMAT
 62
     7
100
AcDbBlockReference
  2
SW_CENTERMARKSYMBOL_0
 10
139.813400071
 20
545.3803163091
 30
0.0
  0
LINE
  5
A6
330
1F
100
AcDbEntity
  8
0
  6
Continuous
 62
     7
370
    25
100
AcDbLine
 10
-286.6353800692
 20
299.9169704797
 30
0.0
 11
-286.6353800692
 21
139.8019132571
 31
0.0
  0
LINE
  5
A7
330
1F
100
AcDbEntity
  8
0
  6
Continuous
 62
     7
370
    25
100
AcDbLine
 10
-86.6353800692
 20
139.8019132571
 30
0.0
 11
-86.6353800692
 21
299.9169704797
 31
0.0
  0
LINE
  5
A8
330
1F
100
AcDbEntity
  8
0
  6
Continuous
 62
     7
370
    25
100
AcDbLine
 10
-286.6353800692
 20
139.8019132571
 30
0.0
 11
-286.6353800692
 21
-45.0830295203
 31
0.0
  0
LINE
  5
A9
330
1F
100
AcDbEntity
  8
0
  6
Continuous
 62
     7
370
    25
100
AcDbLine
 10
-86.6353800692
 20
-45.0830295203
 30
0.0
 11
-86.6353800692
 21
139.8019132571
 31
0.0
  0
LWPOLYLINE
  5
AA
330
1F
100
AcDbEntity
  8
0
  6
Continuous
 62
     7
370
    25
100
AcDbPolyline
 90
      107
 70
   128
 43
0.0
 10
-286.6353800692
 20
299.9169704797
 10
-286.4597532456
 20
296.954939085
 10
-285.9334896706
 20
294.0033119336
 10
-285.058437864
 20
291.0724567235
 10
-283.8376714773
 20
288.1726681906
 10
-282.2754784969
 20
285.3141319478
 10
-280.3773461826
 20
282.5068887079
 10
-278.1499417935
 20
279.7607990153
 10
-275.6010891687
 20
277.08550861
 10
-272.739741246
 20
274.4904145472
 10
-269.5759486142
 20
271.9846321895
 10
-266.1208242106
 20
269.5769631887
 10
-262.3865042854
 20
267.2758645701
 10
-258.3861057736
 20
265.0894190265
 10
-254.133680221
 20
263.0253065276
 10
-249.6441644274
 20
261.0907773437
 10
-244.9333279807
 20
259.2926265794
 10
-240.0177178657
 20
257.6371703046
 10
-234.9146003423
 20
256.1302233699
 10
-229.6419002969
 20
254.7770789814
 10
-224.2181382806
 20
253.5824901081
 10
-218.6623654555
 20
252.5506527869
 10
-212.9940966761
 20
251.6851913842
 10
-207.2332419433
 20
250.9891458647
 10
-201.4000364695
 20
250.4649611135
 10
-195.5149696015
 20
250.1144783489
 10
-189.5987128515
 20
249.9389286542
 10
-183.672047287
 20
249.9389286542
 10
-177.7557905369
 20
250.1144783489
 10
-171.870723669
 20
250.4649611135
 10
-166.0375181951
 20
250.9891458647
 10
-160.2766634623
 20
251.6851913842
 10
-154.6083946829
 20
252.5506527869
 10
-149.0526218578
 20
253.5824901081
 10
-143.6288598416
 20
254.7770789814
 10
-138.3561597961
 20
256.1302233699
 10
-133.2530422727
 20
257.6371703046
 10
-128.3374321578
 20
259.2926265794
 10
-123.626595711
 20
261.0907773437
 10
-119.1370799174
 20
263.0253065276
 10
-114.8846543648
 20
265.0894190265
 10
-110.8842558531
 20
267.2758645701
 10
-107.1499359279
 20
269.5769631887
 10
-103.6948115242
 20
271.9846321895
 10
-100.5310188925
 20
274.4904145472
 10
-97.6696709697
 20
277.08550861
 10
-95.1208183449
 20
279.7607990153
 10
-92.8934139558
 20
282.5068887079
 10
-90.9952816416
 20
285.3141319478
 10
-89.4330886612
 20
288.1726681906
 10
-88.2123222745
 20
291.0724567235
 10
-87.3372704679
 20
294.0033119336
 10
-86.8110068928
 20
296.954939085
 10
-86.6353800692
 20
299.9169704797
 10
-86.8110068928
 20
302.8790018743
 10
-87.3372704679
 20
305.8306290257
 10
-88.2123222745
 20
308.7614842358
 10
-89.4330886612
 20
311.6612727687
 10
-90.9952816416
 20
314.5198090115
 10
-92.8934139558
 20
317.3270522514
 10
-95.1208183449
 20
320.0731419441
 10
-97.6696709697
 20
322.7484323493
 10
-100.5310188925
 20
325.3435264121
 10
-103.6948115242
 20
327.8493087698
 10
-107.1499359279
 20
330.2569777706
 10
-110.8842558531
 20
332.5580763892
 10
-114.8846543648
 20
334.7445219328
 10
-119.1370799174
 20
336.8086344317
 10
-123.626595711
 20
338.7431636156
 10
-128.3374321578
 20
340.5413143799
 10
-133.2530422727
 20
342.1967706547
 10
-138.3561597961
 20
343.7037175894
 10
-143.6288598416
 20
345.0568619779
 10
-149.0526218578
 20
346.2514508512
 10
-154.6083946829
 20
347.2832881724
 10
-160.2766634623
 20
348.1487495751
 10
-166.0375181951
 20
348.8447950946
 10
-171.870723669
 20
349.3689798458
 10
-177.7557905369
 20
349.7194626104
 10
-183.672047287
 20
349.8950123051
 10
-189.5987128515
 20
349.8950123051
 10
-195.5149696015
 20
349.7194626104
 10
-201.4000364695
 20
349.3689798458
 10
-207.2332419433
 20
348.8447950946
 10
-212.9940966761
 20
348.1487495751
 10
-218.6623654555
 20
347.2832881724
 10
-224.2181382806
 20
346.2514508512
 10
-229.6419002969
 20
345.0568619779
 10
-234.9146003423
 20
343.7037175894
 10
-240.0177178657
 20
342.1967706547
 10
-244.9333279807
 20
340.5413143799
 10
-249.6441644274
 20
338.7431636156
 10
-254.133680221
 20
336.8086344317
 10
-258.3861057737
 20
334.7445219328
 10
-262.3865042854
 20
332.5580763892
 10
-266.1208242106
 20
330.2569777706
 10
-269.5759486142
 20
327.8493087698
 10
-272.739741246
 20
325.3435264121
 10
-275.6010891687
 20
322.7484323493
 10
-278.1499417935
 20
320.073141944
 10
-280.3773461826
 20
317.3270522514
 10
-282.2754784969
 20
314.5198090115
 10
-283.8376714773
 20
311.6612727687
 10
-285.058437864
 20
308.7614842358
 10
-285.9334896706
 20
305.8306290257
 10
-286.4597532456
 20
302.8790018743
 10
-286.6353800692
 20
299.9169704797
  0
ELLIPSE
  5
AB
330
1F
100
AcDbEntity
  8
0
  6
Continuous
 62
     7
370
    25
100
AcDbEllipse
 10
-186.6353800692
 20
139.8019132571
 30
0.0
 11
100.0
 21
0.0
 31
0.0
210
0.0
220
0.0
230
1.0
 40
0.2679491924
 41
3.141592653589849
 42
6.283185307179586
  0
LWPOLYLINE
  5
AC
330
1F
100
AcDbEntity
  8
0
  6
Continuous
 62
     7
370
    25
100
AcDbPolyline
 90
       97
 70
   128
 43
0.0
 10
-268.4353800692
 20
299.9169704797
 10
-268.2602399901
 20
302.5919584652
 10
-267.7355697296
 20
305.2554917415
 10
-266.8636160062
 20
307.8961646501
 10
-265.6481126597
 20
310.5026694243
 10
-264.0942646619
 20
313.0638446106
 10
-262.2087258286
 20
315.5687228634
 10
-259.9995703266
 20
318.0065779096
 10
-257.4762580988
 20
320.3669704797
 10
-254.6495943556
 20
322.6397930102
 10
-251.531683305
 20
324.8153129261
 10
-248.135876321
 20
326.8842143172
 10
-244.4767147703
 20
328.8376378302
 10
-240.5698677444
 20
330.6672186055
 10
-236.4320649621
 20
332.3651220976
 10
-232.0810251302
 20
333.9240776228
 10
-227.5353800692
 20
335.3374094944
 10
-222.8145949291
 20
336.5990656083
 10
-217.9388848367
 20
337.7036433594
 10
-212.929128331
 20
338.646412776
 10
-207.8067779586
 20
339.4233367749
 10
-202.5937684101
 20
340.0310884481
 10
-197.3124225928
 20
340.4670653098
 10
-191.9853560402
 20
340.7294004401
 10
-186.6353800692
 20
340.8169704797
 10
-181.2854040982
 20
340.7294004401
 10
-175.9583375456
 20
340.4670653098
 10
-170.6769917283
 20
340.0310884481
 10
-165.4639821798
 20
339.4233367749
 10
-160.3416318074
 20
338.646412776
 10
-155.3318753018
 20
337.7036433594
 10
-150.4561652093
 20
336.5990656083
 10
-145.7353800692
 20
335.3374094944
 10
-141.1897350082
 20
333.9240776228
 10
-136.8386951763
 20
332.3651220976
 10
-132.700892394
 20
330.6672186055
 10
-128.7940453682
 20
328.8376378302
 10
-125.1348838174
 20
326.8842143172
 10
-121.7390768334
 20
324.8153129261
 10
-118.6211657829
 20
322.6397930102
 10
-115.7945020396
 20
320.3669704797
 10
-113.2711898118
 20
318.0065779096
 10
-111.0620343098
 20
315.5687228634
 10
-109.1764954765
 20
313.0638446106
 10
-107.6226474788
 20
310.5026694243
 10
-106.4071441322
 20
307.8961646501
 10
-105.5351904088
 20
305.2554917415
 10
-105.0105201483
 20
302.5919584652
 10
-104.8353800692
 20
299.9169704797
 10
-105.0105201483
 20
297.2419824941
 10
-105.5351904088
 20
294.5784492179
 10
-106.4071441322
 20
291.9377763092
 10
-107.6226474788
 20
289.331271535
 10
-109.1764954765
 20
286.7700963488
 10
-111.0620343098
 20
284.2652180959
 10
-113.2711898118
 20
281.8273630497
 10
-115.7945020396
 20
279.4669704797
 10
-118.6211657829
 20
277.1941479491
 10
-121.7390768334
 20
275.0186280332
 10
-125.1348838174
 20
272.9497266421
 10
-128.7940453682
 20
270.9963031291
 10
-132.700892394
 20
269.1667223538
 10
-136.8386951763
 20
267.4688188617
 10
-141.1897350082
 20
265.9098633365
 10
-145.7353800692
 20
264.4965314649
 10
-150.4561652093
 20
263.234875351
 10
-155.3318753018
 20
262.1302975999
 10
-160.3416318074
 20
261.1875281833
 10
-165.4639821798
 20
260.4106041844
 10
-170.6769917283
 20
259.8028525112
 10
-175.9583375456
 20
259.3668756495
 10
-181.2854040982
 20
259.1045405192
 10
-186.6353800692
 20
259.0169704797
 10
-191.9853560402
 20
259.1045405192
 10
-197.3124225928
 20
259.3668756495
 10
-202.5937684101
 20
259.8028525112
 10
-207.8067779586
 20
260.4106041844
 10
-212.929128331
 20
261.1875281833
 10
-217.9388848367
 20
262.1302975999
 10
-222.8145949291
 20
263.234875351
 10
-227.5353800692
 20
264.4965314649
 10
-232.0810251302
 20
265.9098633365
 10
-236.4320649621
 20
267.4688188617
 10
-240.5698677444
 20
269.1667223538
 10
-244.4767147703
 20
270.9963031291
 10
-248.135876321
 20
272.9497266421
 10
-251.531683305
 20
275.0186280332
 10
-254.6495943556
 20
277.1941479492
 10
-257.4762580988
 20
279.4669704797
 10
-259.9995703266
 20
281.8273630497
 10
-262.2087258286
 20
284.2652180959
 10
-264.0942646619
 20
286.7700963488
 10
-265.6481126597
 20
289.331271535
 10
-266.8636160062
 20
291.9377763092
 10
-267.7355697296
 20
294.5784492179
 10
-268.2602399901
 20
297.2419824941
 10
-268.4353800692
 20
299.9169704797
  0
LINE
  5
AD
330
1F
100
AcDbEntity
  8
0
  6
Continuous
 62
     7
370
    25
100
AcDbLine
 10
-286.6353800692
 20
-45.0830295203
 30
0.0
 11
-86.6353800692
 21
-45.0830295203
 31
0.0
  0
LINE
  5
AE
330
1F
100
AcDbEntity
  8
0
  6
Continuous
 62
     7
370
    25
100
AcDbLine
 10
232.2558714597
 20
-214.752206903
 30
0.0
 11
139.813400071
 21
-214.752206903
 31
0.0
  0
LINE
  5
AF
330
1F
100
AcDbEntity
  8
0
  6
Continuous
 62
     7
370
    25
100
AcDbLine
 10
139.813400071
 20
-414.752206903
 30
0.0
 11
232.2558714597
 21
-414.752206903
 31
0.0
  0
LWPOLYLINE
  5
B0
330
1F
100
AcDbEntity
  8
0
  6
Continuous
 62
     7
370
    25
100
AcDbPolyline
 90
      107
 70
   128
 43
0.0
 10
232.2558714597
 20
-414.752206903
 10
237.3862603289
 20
-414.5765800794
 10
242.4986285201
 20
-414.0503165043
 10
247.5750186536
 20
-413.1752646977
 10
252.5975997238
 20
-411.954498311
 10
257.5487297316
 20
-410.3923053306
 10
262.4110176523
 20
-408.4941730164
 10
267.1673845221
 20
-406.2667686273
 10
271.8011234291
 20
-403.7179160024
 10
276.2959581962
 20
-400.8565680797
 10
280.6361005525
 20
-397.692775448
 10
284.8063055896
 20
-394.2376510443
 10
288.7919253102
 20
-390.5033311191
 10
292.5789600798
 20
-386.5029326074
 10
296.1541078005
 20
-382.2505070548
 10
299.5048106356
 20
-377.7609912611
 10
302.6192991191
 20
-373.0501548144
 10
305.4866334968
 20
-368.1345446994
 10
308.096742152
 20
-363.031427176
 10
310.4404569829
 20
-357.7587271306
 10
312.5095456056
 20
-352.3349651144
 10
314.2967402709
 20
-346.7791922892
 10
315.7957633924
 20
-341.1109235099
 10
317.0013495967
 20
-335.3500687771
 10
317.9092642182
 20
-329.5168633032
 10
318.5163181737
 20
-323.6317964352
 10
318.8203791642
 20
-317.7155396852
 10
318.8203791642
 20
-311.7888741207
 10
318.5163181737
 20
-305.8726173707
 10
317.9092642182
 20
-299.9875505027
 10
317.0013495967
 20
-294.1543450288
 10
315.7957633924
 20
-288.393490296
 10
314.2967402709
 20
-282.7252215167
 10
312.5095456056
 20
-277.1694486915
 10
310.4404569829
 20
-271.7456866753
 10
308.096742152
 20
-266.4729866299
 10
305.4866334968
 20
-261.3698691065
 10
302.6192991191
 20
-256.4542589915
 10
299.5048106356
 20
-251.7434225448
 10
296.1541078005
 20
-247.2539067511
 10
292.5789600798
 20
-243.0014811985
 10
288.7919253102
 20
-239.0010826868
 10
284.8063055896
 20
-235.2667627616
 10
280.6361005525
 20
-231.8116383579
 10
276.2959581962
 20
-228.6478457262
 10
271.8011234291
 20
-225.7864978035
 10
267.1673845221
 20
-223.2376451787
 10
262.4110176523
 20
-221.0102407895
 10
257.5487297316
 20
-219.1121084753
 10
252.5975997238
 20
-217.5499154949
 10
247.5750186536
 20
-216.3291491082
 10
242.4986285201
 20
-215.4540973016
 10
237.3862603289
 20
-214.9278337265
 10
232.2558714597
 20
-214.752206903
 10
227.1254825905
 20
-214.9278337265
 10
222.0131143993
 20
-215.4540973016
 10
216.9367242658
 20
-216.3291491082
 10
211.9141431956
 20
-217.5499154949
 10
206.9630131878
 20
-219.1121084753
 10
202.1007252672
 20
-221.0102407895
 10
197.3443583973
 20
-223.2376451787
 10
192.7106194903
 20
-225.7864978035
 10
188.2157847232
 20
-228.6478457262
 10
183.8756423669
 20
-231.8116383579
 10
179.7054373298
 20
-235.2667627616
 10
175.7198176092
 20
-239.0010826868
 10
171.9327828396
 20
-243.0014811985
 10
168.3576351189
 20
-247.2539067511
 10
165.0069322838
 20
-251.7434225448
 10
161.8924438003
 20
-256.4542589915
 10
159.0251094226
 20
-261.3698691065
 10
156.4150007674
 20
-266.4729866299
 10
154.0712859365
 20
-271.7456866753
 10
152.0021973138
 20
-277.1694486915
 10
150.2150026485
 20
-282.7252215167
 10
148.715979527
 20
-288.393490296
 10
147.5103933228
 20
-294.1543450288
 10
146.6024787012
 20
-299.9875505027
 10
145.9954247457
 20
-305.8726173707
 10
145.6913637552
 20
-311.7888741207
 10
145.6913637552
 20
-317.7155396852
 10
145.9954247457
 20
-323.6317964352
 10
146.6024787012
 20
-329.5168633032
 10
147.5103933228
 20
-335.3500687771
 10
148.715979527
 20
-341.1109235099
 10
150.2150026485
 20
-346.7791922892
 10
152.0021973138
 20
-352.3349651144
 10
154.0712859365
 20
-357.7587271306
 10
156.4150007674
 20
-363.031427176
 10
159.0251094226
 20
-368.1345446994
 10
161.8924438003
 20
-373.0501548144
 10
165.0069322838
 20
-377.7609912611
 10
168.3576351189
 20
-382.2505070548
 10
171.9327828396
 20
-386.5029326074
 10
175.7198176092
 20
-390.5033311191
 10
179.7054373298
 20
-394.2376510443
 10
183.8756423669
 20
-397.692775448
 10
188.2157847232
 20
-400.8565680797
 10
192.7106194903
 20
-403.7179160024
 10
197.3443583973
 20
-406.2667686273
 10
202.1007252672
 20
-408.4941730164
 10
206.9630131878
 20
-410.3923053306
 10
211.9141431956
 20
-411.954498311
 10
216.9367242659
 20
-413.1752646977
 10
222.0131143993
 20
-414.0503165043
 10
227.1254825905
 20
-414.5765800794
 10
232.2558714597
 20
-414.752206903
  0
ARC
  5
B1
330
1F
100
AcDbEntity
  8
0
  6
Continuous
 62
     7
370
    25
100
AcDbCircle
 10
139.813400071
 20
-314.752206903
 30
0.0
 40
100.0
100
AcDbArc
 50
90.0
 51
180.0
  0
ARC
  5
B2
330
1F
100
AcDbEntity
  8
0
  6
Continuous
 62
     7
370
    25
100
AcDbCircle
 10
139.813400071
 20
-314.752206903
 30
0.0
 40
100.0
100
AcDbArc
 50
180.0
 51
270.0
  0
LWPOLYLINE
  5
B3
330
1F
100
AcDbEntity
  8
0
  6
Continuous
 62
     7
370
    25
100
AcDbPolyline
 90
       97
 70
   128
 43
0.0
 10
232.2558714597
 20
-396.552206903
 10
227.6226563592
 20
-396.3770668239
 10
223.009281397
 20
-395.8523965633
 10
218.435501753
 20
-394.9804428399
 10
213.9209030539
 20
-393.7649394934
 10
209.4848175043
 20
-392.2110914957
 10
205.1462411036
 20
-390.3255526624
 10
200.923752302
 20
-388.1163971603
 10
196.8354324449
 20
-385.5930849325
 10
192.8987883455
 20
-382.7664211893
 10
189.1306773182
 20
-379.6485101388
 10
185.5472349929
 20
-376.2527031547
 10
182.1638062198
 20
-372.593541604
 10
178.9948793603
 20
-368.6866945781
 10
176.0540242458
 20
-364.5488917959
 10
173.3538340693
 20
-360.197851964
 10
170.9058714597
 20
-355.652206903
 10
168.7206189687
 20
-350.9314217629
 10
166.8074341831
 20
-346.0557116704
 10
165.1745096536
 20
-341.0459551648
 10
163.828837814
 20
-335.9236047923
 10
162.7761810375
 20
-330.7105952439
 10
162.0210469621
 20
-325.4292494266
 10
161.5666691878
 20
-320.102182874
 10
161.4149934301
 20
-314.752206903
 10
161.5666691878
 20
-309.4022309319
 10
162.0210469621
 20
-304.0751643794
 10
162.7761810375
 20
-298.793818562
 10
163.828837814
 20
-293.5808090136
 10
165.1745096536
 20
-288.4584586412
 10
166.8074341831
 20
-283.4487021355
 10
168.7206189687
 20
-278.572992043
 10
170.9058714597
 20
-273.852206903
 10
173.3538340693
 20
-269.306561842
 10
176.0540242458
 20
-264.95552201
 10
178.9948793603
 20
-260.8177192278
 10
182.1638062198
 20
-256.9108722019
 10
185.5472349929
 20
-253.2517106512
 10
189.1306773182
 20
-249.8559036671
 10
192.8987883455
 20
-246.7379926166
 10
196.8354324449
 20
-243.9113288734
 10
200.923752302
 20
-241.3880166456
 10
205.1462411036
 20
-239.1788611435
 10
209.4848175043
 20
-237.2933223103
 10
213.9209030539
 20
-235.7394743125
 10
218.435501753
 20
-234.523970966
 10
223.009281397
 20
-233.6520172426
 10
227.6226563592
 20
-233.127346982
 10
232.2558714597
 20
-232.952206903
 10
236.8890865603
 20
-233.127346982
 10
241.5024615224
 20
-233.6520172426
 10
246.0762411664
 20
-234.523970966
 10
250.5908398655
 20
-235.7394743125
 10
255.0269254151
 20
-237.2933223103
 10
259.3655018158
 20
-239.1788611435
 10
263.5879906174
 20
-241.3880166456
 10
267.6763104745
 20
-243.9113288734
 10
271.6129545739
 20
-246.7379926166
 10
275.3810656012
 20
-249.8559036671
 10
278.9645079265
 20
-253.2517106512
 10
282.3479366996
 20
-256.9108722019
 10
285.5168635591
 20
-260.8177192278
 10
288.4577186736
 20
-264.95552201
 10
291.1579088501
 20
-269.306561842
 10
293.6058714597
 20
-273.852206903
 10
295.7911239507
 20
-278.572992043
 10
297.7043087364
 20
-283.4487021355
 10
299.3372332658
 20
-288.4584586412
 10
300.6829051055
 20
-293.5808090136
 10
301.7355618819
 20
-298.793818562
 10
302.4906959573
 20
-304.0751643794
 10
302.9450737316
 20
-309.4022309319
 10
303.0967494893
 20
-314.752206903
 10
302.9450737316
 20
-320.102182874
 10
302.4906959573
 20
-325.4292494266
 10
301.7355618819
 20
-330.7105952439
 10
300.6829051055
 20
-335.9236047923
 10
299.3372332658
 20
-341.0459551648
 10
297.7043087364
 20
-346.0557116704
 10
295.7911239507
 20
-350.9314217629
 10
293.6058714597
 20
-355.652206903
 10
291.1579088501
 20
-360.197851964
 10
288.4577186736
 20
-364.5488917959
 10
285.5168635591
 20
-368.6866945781
 10
282.3479366996
 20
-372.593541604
 10
278.9645079265
 20
-376.2527031547
 10
275.3810656012
 20
-379.6485101388
 10
271.6129545739
 20
-382.7664211893
 10
267.6763104745
 20
-385.5930849325
 10
263.5879906174
 20
-388.1163971603
 10
259.3655018158
 20
-390.3255526624
 10
255.0269254151
 20
-392.2110914957
 10
250.5908398655
 20
-393.7649394934
 10
246.0762411664
 20
-394.9804428399
 10
241.5024615224
 20
-395.8523965633
 10
236.8890865603
 20
-396.3770668239
 10
232.2558714597
 20
-396.552206903
  0
ARC
  5
B4
330
1F
100
AcDbEntity
  8
0
  6
Continuous
 62
     7
370
    25
100
AcDbCircle
 10
139.813400071
 20
-314.752206903
 30
0.0
 40
81.80000000000003
100
AcDbArc
 50
307.2735183233
 51
52.7264816767
  0
INSERT
  5
C0
330
1F
100
AcDbEntity
  8
FORMAT
 62
     7
100
AcDbBlockReference
  2
SW_CENTERMARKSYMBOL_1
 10
139.813400071
 20
-314.752206903
 30
0.0
  0
LINE
  5
C1
330
1F
100
AcDbEntity
  8
0
  6
Continuous
 62
     7
370
    25
100
AcDbLine
 10
377.3855179884
 20
-305.5048604141
 30
0.0
 11
377.3855179884
 21
-471.9418535711
 31
0.0
  0
LINE
  5
C2
330
1F
100
AcDbEntity
  8
0
  6
Continuous
 62
     7
370
    25
100
AcDbLine
 10
577.3855179884
 20
-471.9418535711
 30
0.0
 11
577.3855179884
 21
-336.4466441663
 31
0.0
  0
LINE
  5
C3
330
1F
100
AcDbEntity
  8
0
  6
Continuous
 62
     7
370
    25
100
AcDbLine
 10
449.523421586
 20
-116.3281825278
 30
0.0
 11
378.560638727
 21
-299.2273791463
 31
0.0
  0
LINE
  5
C4
330
1F
100
AcDbEntity
  8
0
  6
Continuous
 62
     7
370
    25
100
AcDbLine
 10
577.3855179884
 20
-339.6953738779
 30
0.0
 11
635.9810111681
 21
-188.6715808946
 31
0.0
  0
LWPOLYLINE
  5
C5
330
1F
100
AcDbEntity
  8
0
  6
Continuous
 62
     7
370
    25
100
AcDbPolyline
 90
      107
 70
   128
 43
0.0
 10
406.6748398698
 20
-431.12144798
 10
410.9879717582
 20
-428.7749131036
 10
415.5343274494
 20
-426.58000368
 10
420.2979377031
 20
-424.5444294085
 10
425.2620701647
 20
-422.675340318
 10
430.4092881378
 20
-420.9793016522
 10
435.7215118315
 20
-419.4622708086
 10
441.1800818663
 20
-418.1295764135
 10
446.765824816
 20
-416.9858996045
 10
452.4591205547
 20
-416.0352575882
 10
458.2399711735
 20
-415.2809895292
 10
464.0880712238
 20
-414.7257448216
 10
469.9828790408
 20
-414.3714737828
 10
475.9036888971
 20
-414.2194208027
 10
481.8297037321
 20
-414.2701199729
 10
487.7401082025
 20
-414.5233932107
 10
493.6141417973
 20
-414.9783508847
 10
499.431171759
 20
-415.6333949394
 10
505.1707655578
 20
-416.4862245087
 10
510.8127626611
 20
-417.5338439976
 10
516.3373453484
 20
-418.7725736044
 10
521.7251083215
 20
-420.1980622463
 10
526.9571268664
 20
-421.8053028424
 10
532.0150233272
 20
-423.5886499015
 10
536.8810316581
 20
-425.541839352
 10
541.5380598273
 20
-427.6580105447
 10
545.9697498536
 20
-429.9297303511
 10
550.1605352641
 20
-432.3490192726
 10
554.0956957722
 20
-434.9073794685
 10
557.7614089831
 20
-437.5958246054
 10
561.1447989455
 20
-440.4049114217
 10
564.2339813787
 20
-443.3247728976
 10
567.0181054167
 20
-446.3451529129
 10
569.4873917224
 20
-449.4554422729
 10
571.6331668376
 20
-452.6447159727
 10
573.4478936488
 20
-455.9017715721
 10
574.9251978619
 20
-459.2151685445
 10
576.0598903922
 20
-462.5732684622
 10
576.8479855905
 20
-465.9642758768
 10
577.2867152439
 20
-469.3762797511
 10
577.3745382984
 20
-472.797295297
 10
577.1111462723
 20
-476.2153060726
 10
576.4974643397
 20
-479.6183061905
 10
575.5356480808
 20
-482.9943424885
 10
574.2290759104
 20
-486.3315565162
 10
572.5823372106
 20
-489.6182261874
 10
570.6012162115
 20
-492.8428069551
 10
568.2926716726
 20
-495.9939723618
 10
565.6648124408
 20
-499.060653824
 10
562.7268689677
 20
-502.0320795113
 10
559.4891608867
 20
-504.8978121825
 10
555.9630607656
 20
-507.6477858472
 10
552.1609541597
 20
-510.2723411225
 10
548.0961961071
 20
-512.7622591623
 10
543.7830642186
 20
-515.1087940387
 10
539.2367085274
 20
-517.3037034623
 10
534.4730982737
 20
-519.3392777338
 10
529.5089658121
 20
-521.2083668243
 10
524.3617478391
 20
-522.9044054901
 10
519.0495241454
 20
-524.4214363337
 10
513.5909541105
 20
-525.7541307288
 10
508.0052111608
 20
-526.8978075378
 10
502.3119154221
 20
-527.8484495541
 10
496.5310648033
 20
-528.6027176131
 10
490.6829647531
 20
-529.1579623206
 10
484.7881569361
 20
-529.5122333594
 10
478.8673470798
 20
-529.6642863395
 10
472.9413322448
 20
-529.6135871693
 10
467.0309277743
 20
-529.3603139315
 10
461.1568941796
 20
-528.9053562576
 10
455.3398642179
 20
-528.2503122029
 10
449.6002704191
 20
-527.3974826336
 10
443.9582733157
 20
-526.3498631447
 10
438.4336906284
 20
-525.1111335378
 10
433.0459276553
 20
-523.6856448959
 10
427.8139091104
 20
-522.0784042998
 10
422.7560126496
 20
-520.2950572408
 10
417.8900043188
 20
-518.3418677903
 10
413.2329761496
 20
-516.2256965976
 10
408.8012861233
 20
-513.9539767912
 10
404.6105007128
 20
-511.5346878697
 10
400.6753402047
 20
-508.9763276738
 10
397.0096269938
 20
-506.2878825368
 10
393.6262370314
 20
-503.4787957205
 10
390.5370545982
 20
-500.5589342447
 10
387.7529305601
 20
-497.5385542293
 10
385.2836442544
 20
-494.4282648694
 10
383.1378691393
 20
-491.2389911696
 10
381.3231423281
 20
-487.9819355702
 10
379.8458381149
 20
-484.6685385978
 10
378.7111455847
 20
-481.31043868
 10
377.9230503863
 20
-477.9194312654
 10
377.484320733
 20
-474.5074273912
 10
377.3964976785
 20
-471.0864118453
 10
377.6598897046
 20
-467.6684010697
 10
378.2735716371
 20
-464.2654009518
 10
379.235387896
 20
-460.8893646537
 10
380.5419600665
 20
-457.5521506261
 10
382.1886987662
 20
-454.2654809549
 10
384.1698197654
 20
-451.0409001871
 10
386.4783643043
 20
-447.8897347805
 10
389.106223536
 20
-444.8230533182
 10
392.0441670091
 20
-441.851627631
 10
395.2818750901
 20
-438.9858949597
 10
398.8079752112
 20
-436.2359212951
 10
402.6100818171
 20
-433.6113660198
 10
406.6748398698
 20
-431.12144798
  0
LWPOLYLINE
  5
C6
330
1F
100
AcDbEntity
  8
0
  6
Continuous
 62
     7
370
    25
100
AcDbPolyline
 90
       97
 70
   128
 43
0.0
 10
419.5441832874
 20
-438.5507617976
 10
415.8850217366
 20
-440.8061365786
 10
412.4892147526
 20
-443.1948392799
 10
409.3713037021
 20
-445.7066411096
 10
406.5446399589
 20
-448.3307861468
 10
404.021327731
 20
-451.0560373996
 10
401.812172229
 20
-453.8707249237
 10
399.9266333957
 20
-456.7627957949
 10
398.372785398
 20
-459.7198657219
 10
397.1572820514
 20
-462.7292720772
 10
396.285328328
 20
-465.7781281208
 10
395.7606580675
 20
-468.8533781831
 10
395.5855179884
 20
-471.9418535711
 10
395.7606580675
 20
-475.0303289592
 10
396.285328328
 20
-478.1055790214
 10
397.1572820514
 20
-481.154435065
 10
398.372785398
 20
-484.1638414203
 10
399.9266333957
 20
-487.1209113473
 10
401.812172229
 20
-490.0129822186
 10
404.021327731
 20
-492.8276697427
 10
406.5446399589
 20
-495.5529209954
 10
409.3713037021
 20
-498.1770660327
 10
412.4892147526
 20
-500.6888678624
 10
415.8850217366
 20
-503.0775705636
 10
419.5441832874
 20
-505.3329453447
 10
423.4510303132
 20
-507.4453343444
 10
427.5888330955
 20
-509.405691989
 10
431.9398729274
 20
-511.2056237258
 10
436.4855179884
 20
-512.837421971
 10
441.2063031285
 20
-514.2940991138
 10
446.082013221
 20
-515.5694174392
 10
451.0917697266
 20
-516.6579158384
 10
456.214120099
 20
-517.5549331939
 10
461.4271296475
 20
-518.2566283399
 10
466.7084754648
 20
-518.7599965099
 10
472.0355420174
 20
-519.0628822042
 10
477.3855179884
 20
-519.1639884197
 10
482.7354939594
 20
-519.0628822042
 10
488.062560512
 20
-518.7599965099
 10
493.3439063293
 20
-518.2566283399
 10
498.5569158778
 20
-517.5549331939
 10
503.6792662502
 20
-516.6579158384
 10
508.6890227559
 20
-515.5694174392
 10
513.5647328483
 20
-514.2940991138
 10
518.2855179884
 20
-512.837421971
 10
522.8311630494
 20
-511.2056237258
 10
527.1822028813
 20
-509.405691989
 10
531.3200056636
 20
-507.4453343444
 10
535.2268526895
 20
-505.3329453447
 10
538.8860142402
 20
-503.0775705636
 10
542.2818212242
 20
-500.6888678624
 10
545.3997322748
 20
-498.1770660327
 10
548.226396018
 20
-495.5529209954
 10
550.7497082458
 20
-492.8276697427
 10
552.9588637478
 20
-490.0129822186
 10
554.8444025811
 20
-487.1209113473
 10
556.3982505789
 20
-484.1638414203
 10
557.6137539254
 20
-481.154435065
 10
558.4857076488
 20
-478.1055790214
 10
559.0103779093
 20
-475.0303289592
 10
559.1855179884
 20
-471.9418535711
 10
559.0103779093
 20
-468.8533781831
 10
558.4857076488
 20
-465.7781281208
 10
557.6137539254
 20
-462.7292720772
 10
556.3982505789
 20
-459.7198657219
 10
554.8444025811
 20
-456.7627957949
 10
552.9588637478
 20
-453.8707249237
 10
550.7497082458
 20
-451.0560373996
 10
548.226396018
 20
-448.3307861468
 10
545.3997322748
 20
-445.7066411096
 10
542.2818212242
 20
-443.1948392799
 10
538.8860142402
 20
-440.8061365786
 10
535.2268526895
 20
-438.5507617976
 10
531.3200056636
 20
-436.4383727978
 10
527.1822028813
 20
-434.4780151533
 10
522.8311630494
 20
-432.6780834165
 10
518.2855179884
 20
-431.0462851713
 10
513.5647328483
 20
-429.5896080284
 10
508.6890227559
 20
-428.314289703
 10
503.6792662502
 20
-427.2257913039
 10
498.5569158778
 20
-426.3287739484
 10
493.3439063293
 20
-425.6270788024
 10
488.062560512
 20
-425.1237106324
 10
482.7354939594
 20
-424.8208249381
 10
477.3855179884
 20
-424.7197187225
 10
472.0355420174
 20
-424.8208249381
 10
466.7084754648
 20
-425.1237106324
 10
461.4271296475
 20
-425.6270788024
 10
456.214120099
 20
-426.3287739484
 10
451.0917697266
 20
-427.2257913039
 10
446.082013221
 20
-428.314289703
 10
441.2063031285
 20
-429.5896080284
 10
436.4855179884
 20
-431.0462851713
 10
431.9398729274
 20
-432.6780834165
 10
427.5888330955
 20
-434.4780151533
 10
423.4510303132
 20
-436.4383727978
 10
419.5441832874
 20
-438.5507617976
  0
ELLIPSE
  5
C7
330
1F
100
AcDbEntity
  8
0
  6
Continuous
 62
     7
370
    25
100
AcDbEllipse
 10
477.3855179884
 20
-320.9757522902
 30
0.0
 11
99.70578700893805
 21
-18.66454602912239
 31
0.0
210
0.0
220
0.0
230
1.0
 40
0.4106849769
 41
0.0767277489784148
 42
3.218320402568245
  0
LWPOLYLINE
  5
C8
330
1F
100
AcDbEntity
  8
0
  6
Continuous
 62
     7
370
    25
100
AcDbPolyline
 90
       44
 70
   128
 43
0.0
 10
472.0415382584
 20
-111.6794761201
 10
475.7934579358
 20
-112.0755416768
 10
479.7805726944
 20
-112.6135992022
 10
483.988877648
 20
-113.2917587497
 10
488.4035909721
 20
-114.107638259
 10
493.0092058251
 20
-115.0583719237
 10
497.7895448169
 20
-116.1406202571
 10
502.7278168324
 20
-117.3505818224
 10
507.806676011
 20
-118.6840065854
 10
513.0082826747
 20
-120.1362108432
 10
518.3143659903
 20
-121.7020936753
 10
523.7062881466
 20
-123.376154861
 10
529.1651098205
 20
-125.1525141995
 10
534.6716567018
 20
-127.0249321638
 10
540.2065868435
 20
-128.9868318175
 10
545.7504586019
 20
-131.0313219164
 10
551.2837989251
 20
-133.1512211147
 10
556.7871717535
 20
-135.339083189
 10
562.2412462892
 20
-137.5872231939
 10
567.6268648965
 20
-139.8877444558
 10
572.9251103938
 20
-142.2325663097
 10
578.1173725003
 20
-144.6134524835
 10
583.1854132061
 20
-147.0220400276
 10
588.1114308335
 20
-149.4498686903
 10
592.8781225657
 20
-151.8884106351
 10
597.4687452243
 20
-154.3291003943
 10
601.8671740797
 20
-156.7633649561
 10
606.0579594902
 20
-159.1826538776
 10
610.0263811691
 20
-161.5784693181
 10
613.7584998907
 20
-163.9423958885
 10
617.2412064517
 20
-166.2661302106
 10
620.4622677184
 20
-168.5415100827
 10
623.4103695955
 20
-170.7605431501
 10
626.0751567677
 20
-172.9154349782
 10
628.447269073
 20
-174.9986164309
 10
630.5183743802
 20
-177.0027702573
 10
632.2811978564
 20
-178.9208567941
 10
633.72954752
 20
-180.7461386922
 10
634.8583359899
 20
-182.4722045825
 10
635.6635983554
 20
-184.0929915957
 10
636.1425061031
 20
-185.6028066581
 10
636.293377052
 20
-186.9963464893
 10
636.1156812626
 20
-188.2687162298
 10
635.9810111681
 20
-188.6715808946
  0
LWPOLYLINE
  5
C9
330
1F
100
AcDbEntity
  8
0
  6
Continuous
 62
     7
370
    25
100
AcDbPolyline
 90
       12
 70
   128
 43
0.0
 10
449.523421586
 20
-116.3281825278
 10
449.8943898565
 20
-115.5843167878
 10
450.7261947238
 20
-114.5672536512
 10
451.8812443485
 20
-113.6834302541
 10
453.3554815766
 20
-112.9359510584
 10
455.1437280961
 20
-112.3274416121
 10
457.2397026259
 20
-111.8600393268
 10
459.636042979
 20
-111.5353859701
 10
462.3243319225
 20
-111.3546218987
 10
465.2951267435
 20
-111.3183820529
 10
468.5379924167
 20
-111.4267937267
 10
472.0415382584
 20
-111.6794761201
  0
ENDSEC
  0
SECTION
  2
OBJECTS
  0
DICTIONARY
  5
C
330
0
100
AcDbDictionary
281
     1
  3
ACAD_GROUP
350
D
  3
ACAD_LAYOUT
350
1A
  3
ACAD_MLINESTYLE
350
17
  3
ACAD_PLOTSETTINGS
350
19
  3
ACAD_PLOTSTYLENAME
350
E
  3
ACAD_SCALELIST
350
47
  3
DWGPROPS
350
CA
  0
DICTIONARY
  5
D
102
{ACAD_REACTORS
330
C
102
}
330
C
100
AcDbDictionary
281
     1
  0
DICTIONARY
  5
1A
102
{ACAD_REACTORS
330
C
102
}
330
C
100
AcDbDictionary
281
     1
  3
Layout1
350
1E
  3
Layout2
350
26
  3
Model
350
22
  0
DICTIONARY
  5
17
102
{ACAD_REACTORS
330
C
102
}
330
C
100
AcDbDictionary
281
     1
  3
Standard
350
18
  0
DICTIONARY
  5
19
102
{ACAD_REACTORS
330
C
102
}
330
C
100
AcDbDictionary
281
     1
  0
ACDBDICTIONARYWDFLT
  5
E
102
{ACAD_REACTORS
330
C
102
}
330
C
100
AcDbDictionary
281
     1
  3
Normal
350
F
100
AcDbDictionaryWithDefault
340
F
  0
DICTIONARY
  5
47
102
{ACAD_REACTORS
330
C
102
}
330
C
100
AcDbDictionary
281
     1
  3
A0
350
48
  3
A1
350
49
  3
A2
350
4A
  3
A3
350
4B
  3
A4
350
4C
  3
A5
350
4D
  3
A6
350
4E
  3
A7
350
4F
  3
A8
350
50
  3
A9
350
51
  3
B0
350
52
  3
B1
350
53
  3
B2
350
54
  3
B3
350
55
  3
B4
350
56
  3
B5
350
57
  3
B6
350
58
  3
B7
350
59
  3
B8
350
5A
  3
B9
350
5B
  3
C0
350
5C
  3
C1
350
5D
  3
C2
350
5E
  3
C3
350
5F
  3
C4
350
60
  3
C5
350
61
  3
C6
350
62
  3
C7
350
63
  3
C8
350
64
  3
C9
350
65
  3
D0
350
66
  3
D1
350
67
  3
D2
350
68
  0
XRECORD
  5
CA
102
{ACAD_REACTORS
330
C
102
}
330
C
100
AcDbXrecord
280
     1
  1
DWGPROPS COOKIE
  2

  3

  4

  6

  7

  8
b.kav
  9

300
=
301
=
302
=
303
=
304
=
305
=
306
=
307
=
308
=
309
=
 40
0.0
 41
2460682.394579838
 42
2460682.394580023
  1

 90
        0
  0
LAYOUT
  5
1E
102
{ACAD_REACTORS
330
1A
102
}
330
1A
100
AcDbPlotSettings
  1

  2
none_device
  4

  6

 40
0.0
 41
0.0
 42
0.0
 43
0.0
 44
0.0
 45
0.0
 46
0.0
 47
0.0
 48
0.0
 49
0.0
140
0.0
141
0.0
142
1.0
143
1.0
 70
   688
 72
     1
 73
     0
 74
     5
  7

 75
    16
147
1.0
148
0.0
149
0.0
100
AcDbLayout
  1
Layout1
 70
     1
 71
     1
 10
0.0
 20
0.0
 11
420.0
 21
297.0
 12
0.0
 22
0.0
 32
0.0
 14
1.0000000000E+20
 24
1.0000000000E+20
 34
1.0000000000E+20
 15
-1.0000000000E+20
 25
-1.0000000000E+20
 35
-1.0000000000E+20
146
0.0
 13
0.0
 23
0.0
 33
0.0
 16
1.0
 26
0.0
 36
0.0
 17
0.0
 27
1.0
 37
0.0
 76
     0
330
1B
  0
LAYOUT
  5
26
102
{ACAD_REACTORS
330
1A
102
}
330
1A
100
AcDbPlotSettings
  1

  2
none_device
  4

  6

 40
0.0
 41
0.0
 42
0.0
 43
0.0
 44
0.0
 45
0.0
 46
0.0
 47
0.0
 48
0.0
 49
0.0
140
0.0
141
0.0
142
1.0
143
1.0
 70
   688
 72
     1
 73
     0
 74
     5
  7

 75
    16
147
1.0
148
0.0
149
0.0
100
AcDbLayout
  1
Layout2
 70
     1
 71
     2
 10
0.0
 20
0.0
 11
0.0
 21
0.0
 12
0.0
 22
0.0
 32
0.0
 14
0.0
 24
0.0
 34
0.0
 15
0.0
 25
0.0
 35
0.0
146
0.0
 13
0.0
 23
0.0
 33
0.0
 16
1.0
 26
0.0
 36
0.0
 17
0.0
 27
1.0
 37
0.0
 76
     0
330
23
  0
LAYOUT
  5
22
102
{ACAD_REACTORS
330
1A
102
}
330
1A
100
AcDbPlotSettings
  1

  2
none_device
  4
Letter_(8.50_x_11.00_Inches)
  6

 40
6.35
 41
6.35
 42
6.35000508
 43
6.35000508
 44
215.9
 45
279.4
 46
0.0
 47
0.0
 48
0.0
 49
0.0
140
0.0
141
0.0
142
1.0
143
1.0
 70
  1712
 72
     1
 73
     0
 74
     0
  7

 75
     0
147
1.0
148
0.0
149
0.0
100
AcDbLayout
  1
Model
 70
     1
 71
     0
 10
0.0
 20
0.0
 11
279.4
 21
215.9
 12
0.0
 22
0.0
 32
0.0
 14
0.0
 24
0.0
 34
0.0
 15
279.4
 25
215.9
 35
0.0
146
0.0
 13
0.0
 23
0.0
 33
0.0
 16
1.0
 26
0.0
 36
0.0
 17
0.0
 27
1.0
 37
0.0
 76
     0
330
1F
331
29
  0
MLINESTYLE
  5
18
102
{ACAD_REACTORS
330
17
102
}
330
17
100
AcDbMlineStyle
  2
Standard
 70
     0
  3

 62
   256
 51
90.0
 52
90.0
 71
     2
 49
0.5
 62
   256
  6
BYLAYER
 49
-0.5
 62
   256
  6
BYLAYER
  0
ACDBPLACEHOLDER
  5
F
102
{ACAD_REACTORS
330
E
102
}
330
E
  0
SCALE
  5
48
102
{ACAD_REACTORS
330
47
102
}
330
47
100
AcDbScale
 70
     0
300
1:1
140
1.0
141
1.0
290
     1
  0
SCALE
  5
49
102
{ACAD_REACTORS
330
47
102
}
330
47
100
AcDbScale
 70
     0
300
1:2
140
1.0
141
2.0
290
     0
  0
SCALE
  5
4A
102
{ACAD_REACTORS
330
47
102
}
330
47
100
AcDbScale
 70
     0
300
1:4
140
1.0
141
4.0
290
     0
  0
SCALE
  5
4B
102
{ACAD_REACTORS
330
47
102
}
330
47
100
AcDbScale
 70
     0
300
1:5
140
1.0
141
5.0
290
     0
  0
SCALE
  5
4C
102
{ACAD_REACTORS
330
47
102
}
330
47
100
AcDbScale
 70
     0
300
1:8
140
1.0
141
8.0
290
     0
  0
SCALE
  5
4D
102
{ACAD_REACTORS
330
47
102
}
330
47
100
AcDbScale
 70
     0
300
1:10
140
1.0
141
10.0
290
     0
  0
SCALE
  5
4E
102
{ACAD_REACTORS
330
47
102
}
330
47
100
AcDbScale
 70
     0
300
1:16
140
1.0
141
16.0
290
     0
  0
SCALE
  5
4F
102
{ACAD_REACTORS
330
47
102
}
330
47
100
AcDbScale
 70
     0
300
1:20
140
1.0
141
20.0
290
     0
  0
SCALE
  5
50
102
{ACAD_REACTORS
330
47
102
}
330
47
100
AcDbScale
 70
     0
300
1:30
140
1.0
141
30.0
290
     0
  0
SCALE
  5
51
102
{ACAD_REACTORS
330
47
102
}
330
47
100
AcDbScale
 70
     0
300
1:40
140
1.0
141
40.0
290
     0
  0
SCALE
  5
52
102
{ACAD_REACTORS
330
47
102
}
330
47
100
AcDbScale
 70
     0
300
1:50
140
1.0
141
50.0
290
     0
  0
SCALE
  5
53
102
{ACAD_REACTORS
330
47
102
}
330
47
100
AcDbScale
 70
     0
300
1:100
140
1.0
141
100.0
290
     0
  0
SCALE
  5
54
102
{ACAD_REACTORS
330
47
102
}
330
47
100
AcDbScale
 70
     0
300
2:1
140
2.0
141
1.0
290
     0
  0
SCALE
  5
55
102
{ACAD_REACTORS
330
47
102
}
330
47
100
AcDbScale
 70
     0
300
4:1
140
4.0
141
1.0
290
     0
  0
SCALE
  5
56
102
{ACAD_REACTORS
330
47
102
}
330
47
100
AcDbScale
 70
     0
300
8:1
140
8.0
141
1.0
290
     0
  0
SCALE
  5
57
102
{ACAD_REACTORS
330
47
102
}
330
47
100
AcDbScale
 70
     0
300
10:1
140
10.0
141
1.0
290
     0
  0
SCALE
  5
58
102
{ACAD_REACTORS
330
47
102
}
330
47
100
AcDbScale
 70
     0
300
100:1
140
100.0
141
1.0
290
     0
  0
SCALE
  5
59
102
{ACAD_REACTORS
330
47
102
}
330
47
100
AcDbScale
 70
     0
300
1/128" = 1'-0"
140
0.0078125
141
12.0
290
     0
  0
SCALE
  5
5A
102
{ACAD_REACTORS
330
47
102
}
330
47
100
AcDbScale
 70
     0
300
1/64" = 1'-0"
140
0.015625
141
12.0
290
     0
  0
SCALE
  5
5B
102
{ACAD_REACTORS
330
47
102
}
330
47
100
AcDbScale
 70
     0
300
1/32" = 1'-0"
140
0.03125
141
12.0
290
     0
  0
SCALE
  5
5C
102
{ACAD_REACTORS
330
47
102
}
330
47
100
AcDbScale
 70
     0
300
1/16" = 1'-0"
140
0.0625
141
12.0
290
     0
  0
SCALE
  5
5D
102
{ACAD_REACTORS
330
47
102
}
330
47
100
AcDbScale
 70
     0
300
3/32" = 1'-0"
140
0.09375
141
12.0
290
     0
  0
SCALE
  5
5E
102
{ACAD_REACTORS
330
47
102
}
330
47
100
AcDbScale
 70
     0
300
1/8" = 1'-0"
140
0.125
141
12.0
290
     0
  0
SCALE
  5
5F
102
{ACAD_REACTORS
330
47
102
}
330
47
100
AcDbScale
 70
     0
300
3/16" = 1'-0"
140
0.1875
141
12.0
290
     0
  0
SCALE
  5
60
102
{ACAD_REACTORS
330
47
102
}
330
47
100
AcDbScale
 70
     0
300
1/4" = 1'-0"
140
0.25
141
12.0
290
     0
  0
SCALE
  5
61
102
{ACAD_REACTORS
330
47
102
}
330
47
100
AcDbScale
 70
     0
300
3/8" = 1'-0"
140
0.375
141
12.0
290
     0
  0
SCALE
  5
62
102
{ACAD_REACTORS
330
47
102
}
330
47
100
AcDbScale
 70
     0
300
1/2" = 1'-0"
140
0.5
141
12.0
290
     0
  0
SCALE
  5
63
102
{ACAD_REACTORS
330
47
102
}
330
47
100
AcDbScale
 70
     0
300
3/4" = 1'-0"
140
0.75
141
12.0
290
     0
  0
SCALE
  5
64
102
{ACAD_REACTORS
330
47
102
}
330
47
100
AcDbScale
 70
     0
300
1" = 1'-0"
140
1.0
141
12.0
290
     0
  0
SCALE
  5
65
102
{ACAD_REACTORS
330
47
102
}
330
47
100
AcDbScale
 70
     0
300
1-1/2" = 1'-0"
140
1.5
141
12.0
290
     0
  0
SCALE
  5
66
102
{ACAD_REACTORS
330
47
102
}
330
47
100
AcDbScale
 70
     0
300
3" = 1'-0"
140
3.0
141
12.0
290
     0
  0
SCALE
  5
67
102
{ACAD_REACTORS
330
47
102
}
330
47
100
AcDbScale
 70
     0
300
6" = 1'-0"
140
6.0
141
12.0
290
     0
  0
SCALE
  5
68
102
{ACAD_REACTORS
330
47
102
}
330
47
100
AcDbScale
 70
     0
300
1'-0" = 1'-0"
140
12.0
141
12.0
290
     0
  0
ENDSEC
  0
EOF
